SolidWorks IGES file using analytic representation for surfaces         S      1
1H,,1H;,28HNTC CRW CO2 Regulator washer,85HS:\E Commerce Data\NTC\RegulaG      1
tor Accessories\NTC CRW\NTC CRW CO2 Regulator washer.IGS,15HSolidWorks 2G      2
009,15HSolidWorks 2009,32,308,15,308,15,28HNTC CRW CO2 Regulator washer,G      3
1.,2,2HMM,50,0.125,13H091102.153723,1E-008,499990.,3Hcad,,11,0,13H091102G      4
.153723;                                                                G      5
     314       1       0       0       0                        00000200D      1
     314       0       8       1       0                               0D      2
     502       2       0       0       0                        00010000D      3
     502       0       0       2       1                               0D      4
     110       4       0       0       0                        01010000D      5
     110       0       0       1       0                               0D      6
     110       5       0       0       0                        01010000D      7
     110       0       0       1       0                               0D      8
     124       6       0       0       0                        00000000D      9
     124       0       0       3       0                               0D     10
     100       9       0       0       0               9        00010000D     11
     100       0       0       1       0                               0D     12
     124      10       0       0       0                        00000000D     13
     124       0       0       3       0                               0D     14
     100      13       0       0       0              13        00010000D     15
     100       0       0       1       0                               0D     16
     124      14       0       0       0                        00000000D     17
     124       0       0       3       0                               0D     18
     100      17       0       0       0              17        00010000D     19
     100       0       0       1       0                               0D     20
     124      18       0       0       0                        00000000D     21
     124       0       0       3       0                               0D     22
     100      21       0       0       0              21        00010000D     23
     100       0       0       1       0                               0D     24
     110      22       0       0       0                        01010000D     25
     110       0       0       1       0                               0D     26
     124      23       0       0       0                        00000000D     27
     124       0       0       3       0                               0D     28
     100      26       0       0       0              27        00010000D     29
     100       0       0       1       0                               0D     30
     110      27       0       0       0                        01010000D     31
     110       0       0       1       0                               0D     32
     124      28       0       0       0                        00000000D     33
     124       0       0       3       0                               0D     34
     100      31       0       0       0              33        00010000D     35
     100       0       0       1       0                               0D     36
     124      32       0       0       0                        00000000D     37
     124       0       0       3       0                               0D     38
     100      35       0       0       0              37        00010000D     39
     100       0       0       1       0                               0D     40
     124      36       0       0       0                        00000000D     41
     124       0       0       3       0                               0D     42
     100      39       0       0       0              41        00010000D     43
     100       0       0       1       0                               0D     44
     504      40       0       0       0                        00010000D     45
     504       0       0       3       1                               0D     46
     110      43       0       0       0                        01010000D     47
     110       0       0       1       0                               0D     48
     110      44       0       0       0                        01010000D     49
     110       0       0       1       0                               0D     50
     120      45       0       0       0                        01010000D     51
     120       0     -55       1       0                               0D     52
     508      46       0       0       0                        00010000D     53
     508       0       0       1       1                               0D     54
     314      47       0       0       0                        00000200D     55
     314       0       1       1       0                               0D     56
     510      48       0       0       0                        00010000D     57
     510       0     -55       1       1                               0D     58
     110      49       0       0       0                        01010000D     59
     110       0       0       1       0                               0D     60
     110      50       0       0       0                        01010000D     61
     110       0       0       1       0                               0D     62
     120      51       0       0       0                        01010000D     63
     120       0     -67       1       0                               0D     64
     508      52       0       0       0                        00010000D     65
     508       0       0       1       1                               0D     66
     314      53       0       0       0                        00000200D     67
     314       0       1       1       0                               0D     68
     510      54       0       0       0                        00010000D     69
     510       0     -67       1       1                               0D     70
     116      55       0       0       0                        00010000D     71
     116       0       0       1       0                               0D     72
     123      56       0       0       0                        00010200D     73
     123       0       0       1       0                               0D     74
     123      57       0       0       0                        00010200D     75
     123       0       0       1       0                               0D     76
     190      58       0       0       0                        00010000D     77
     190       0     -83       1       1                               0D     78
     508      59       0       0       0                        00010000D     79
     508       0       0       1       1                               0D     80
     508      60       0       0       0                        00010000D     81
     508       0       0       1       1                               0D     82
     314      61       0       0       0                        00000200D     83
     314       0       1       1       0                               0D     84
     510      62       0       0       0                        00010000D     85
     510       0     -83       1       1                               0D     86
     116      63       0       0       0                        00010000D     87
     116       0       0       1       0                               0D     88
     123      64       0       0       0                        00010200D     89
     123       0       0       1       0                               0D     90
     123      65       0       0       0                        00010200D     91
     123       0       0       1       0                               0D     92
     190      66       0       0       0                        00010000D     93
     190       0     -99       1       1                               0D     94
     508      67       0       0       0                        00010000D     95
     508       0       0       1       1                               0D     96
     508      68       0       0       0                        00010000D     97
     508       0       0       1       1                               0D     98
     314      69       0       0       0                        00000200D     99
     314       0       1       1       0                               0D    100
     510      70       0       0       0                        00010000D    101
     510       0     -99       1       1                               0D    102
     110      71       0       0       0                        01010000D    103
     110       0       0       1       0                               0D    104
     110      72       0       0       0                        01010000D    105
     110       0       0       1       0                               0D    106
     120      73       0       0       0                        01010000D    107
     120       0    -111       1       0                               0D    108
     508      74       0       0       0                        00010000D    109
     508       0       0       1       1                               0D    110
     314      75       0       0       0                        00000200D    111
     314       0       1       1       0                               0D    112
     510      76       0       0       0                        00010000D    113
     510       0    -111       1       1                               0D    114
     110      77       0       0       0                        01010000D    115
     110       0       0       1       0                               0D    116
     110      78       0       0       0                        01010000D    117
     110       0       0       1       0                               0D    118
     120      79       0       0       0                        01010000D    119
     120       0    -123       1       0                               0D    120
     508      80       0       0       0                        00010000D    121
     508       0       0       1       1                               0D    122
     314      81       0       0       0                        00000200D    123
     314       0       1       1       0                               0D    124
     510      82       0       0       0                        00010000D    125
     510       0    -123       1       1                               0D    126
     514      83       0       0       0                        00010000D    127
     514       0       0       1       1                               0D    128
     186      84       0       0       0                        00000000D    129
     186       0       0       1       0                               0D    130
314,79.6078431372549,82.3529411764706,93.7254901960784,;               1P      1
502,8,0.,1.55,9.525,0.,1.55,6.,0.,0.,9.525,0.,0.,6.,0.,0.,-6.,         3P      2
0.,0.,-9.525,0.,1.55,-6.,0.,1.55,-9.525;                               3P      3
110,0.,1.55,-9.525,0.,0.,-9.525;                                       5P      4
110,0.,1.55,6.,0.,0.,6.;                                               7P      5
124,1.40271637621286E-014,1.,0.,-1.55,-6.12303176911189E-017,          9P      6
8.58887693460487E-031,1.,1.55,1.,-1.40271637621286E-014,               9P      7
6.12303176911189E-017,2.17421038312994E-014;                           9P      8
100,0.,0.,1.55,9.525,1.55,-9.525,1.55;                                11P      9
124,6.12303176911189E-017,-1.,0.,1.55,6.12303176911189E-017,          13P     10
3.74915180455534E-033,1.,1.55,-1.,-6.12303176911189E-017,             13P     11
6.12303176911189E-017,9.49069924212342E-017;                          13P     12
100,0.,0.,1.55,9.525,1.55,-9.525,1.55;                                15P     13
124,1.40271637621286E-014,1.,0.,-1.55,-6.12303176911189E-017,         17P     14
8.58887693460487E-031,1.,1.55,1.,-1.40271637621286E-014,              17P     15
6.12303176911189E-017,2.17421038312994E-014;                          17P     16
100,0.,0.,1.55,6.,1.55,-6.,1.55;                                      19P     17
124,6.12303176911189E-017,-1.,0.,0.,6.12303176911189E-017,            21P     18
3.74915180455534E-033,1.,0.,-1.,-6.12303176911189E-017,               21P     19
6.12303176911189E-017,0.;                                             21P     20
100,0.,0.,0.,6.,0.,-6.,0.;                                            23P     21
110,0.,1.55,9.525,0.,0.,9.525;                                        25P     22
124,1.40271637621286E-014,1.,0.,0.,-6.12303176911189E-017,            27P     23
8.58887693460487E-031,1.,0.,1.,-1.40271637621286E-014,                27P     24
6.12303176911189E-017,0.;                                             27P     25
100,0.,0.,0.,6.,0.,-6.,0.;                                            29P     26
110,0.,1.55,-6.,0.,0.,-6.;                                            31P     27
124,1.40271637621286E-014,1.,0.,0.,-6.12303176911189E-017,            33P     28
8.58887693460487E-031,1.,0.,1.,-1.40271637621286E-014,                33P     29
6.12303176911189E-017,0.;                                             33P     30
100,0.,0.,0.,9.525,0.,-9.525,0.;                                      35P     31
124,6.12303176911189E-017,-1.,0.,1.55,6.12303176911189E-017,          37P     32
3.74915180455534E-033,1.,1.55,-1.,-6.12303176911189E-017,             37P     33
6.12303176911189E-017,9.49069924212342E-017;                          37P     34
100,0.,0.,1.55,6.,1.55,-6.,1.55;                                      39P     35
124,6.12303176911189E-017,-1.,0.,0.,6.12303176911189E-017,            41P     36
3.74915180455534E-033,1.,0.,-1.,-6.12303176911189E-017,               41P     37
6.12303176911189E-017,0.;                                             41P     38
100,0.,0.,0.,9.525,0.,-9.525,0.;                                      43P     39
504,12,5,3,8,3,6,7,3,2,3,4,11,3,1,3,8,15,3,8,3,1,19,3,2,3,7,23,       45P     40
3,5,3,4,25,3,1,3,3,29,3,4,3,5,31,3,7,3,5,35,3,3,3,6,39,3,7,3,2,       45P     41
43,3,6,3,3;                                                           45P     42
110,0.,1.55,0.,0.,-998.45,0.;                                         47P     43
110,0.,1.55,-6.,0.,0.,-6.;                                            49P     44
120,47,49,0.,6.28318530717959;                                        51P     45
508,4,0,45,11,1,0,0,45,2,1,0,0,45,6,0,0,0,45,9,0,0;                   53P     46
314,19.2156862745098,0.,0.,;                                          55P     47
510,51,1,1,53;                                                        57P     48
110,0.,1.55,0.,0.,-998.45,0.;                                         59P     49
110,0.,0.,-9.525,0.,1.55,-9.525;                                      61P     50
120,59,61,0.,6.28318530717959;                                        63P     51
508,4,0,45,3,0,0,0,45,7,1,0,0,45,10,1,0,0,45,1,0,0;                   65P     52
314,19.2156862745098,0.,0.,;                                          67P     53
510,63,1,1,65;                                                        69P     54
116,0.,1.55,0.,;                                                      71P     55
123,0.,1.,0.;                                                         73P     56
123,-0.707106781,0.,0.707106781;                                      75P     57
190,71,73,75;                                                         77P     58
508,2,0,45,4,1,0,0,45,3,1,0;                                          79P     59
508,2,0,45,11,0,0,0,45,5,0,0;                                         81P     60
314,19.2156862745098,0.,0.,;                                          83P     61
510,77,2,1,79,81;                                                     85P     62
116,0.,0.,0.,;                                                        87P     63
123,0.,1.,0.;                                                         89P     64
123,-0.707106781,0.,0.707106781;                                      91P     65
190,87,89,91;                                                         93P     66
508,2,0,45,12,0,0,0,45,10,0,0;                                        95P     67
508,2,0,45,6,1,0,0,45,8,1,0;                                          97P     68
314,19.2156862745098,0.,0.,;                                          99P     69
510,93,2,1,95,97;                                                    101P     70
110,0.,1.55,0.,0.,-998.45,0.;                                        103P     71
110,0.,0.,-9.525,0.,1.55,-9.525;                                     105P     72
120,103,105,0.,6.28318530717959;                                     107P     73
508,4,0,45,7,0,0,0,45,4,0,0,0,45,1,1,0,0,45,12,1,0;                  109P     74
314,19.2156862745098,0.,0.,;                                         111P     75
510,107,1,1,109;                                                     113P     76
110,0.,1.55,0.,0.,-998.45,0.;                                        115P     77
110,0.,1.55,-6.,0.,0.,-6.;                                           117P     78
120,115,117,0.,6.28318530717959;                                     119P     79
508,4,0,45,2,0,0,0,45,5,1,0,0,45,9,1,0,0,45,8,0,0;                   121P     80
314,19.2156862745098,0.,0.,;                                         123P     81
510,119,1,1,121;                                                     125P     82
514,6,57,1,69,1,85,1,101,1,113,1,125,1;                              127P     83
186,127,1,0;                                                         129P     84
S      1G      5D    130P     84                                        T      1
